ISO-10303-21;
HEADER;
FILE_DESCRIPTION(('CATIA V5 STEP Exchange'),'2;1');

FILE_NAME('C:\\Users\\Astroboy\\Desktop\\RIDIX\\30_SCORRIMENTI_ISO\\20_BOCCOLE\\RDBA301\\STEP\\RDBA301.1947.stp','2017-03-26T18:29:10+00:00',('none'),('none'),'CATIA Version 5 Release 19 GA (IN-10)','CATIA V5 STEP AP203','none');

FILE_SCHEMA(('CONFIG_CONTROL_DESIGN'));

ENDSEC;
/* file written by CATIA V5R19 */
DATA;
#5=PRODUCT('RDBA301.1947','','BOCCOLA AUTOLUBRIFICANTE\X2\000D\X0\\X2\000A\X0\NORMATIVE AUTOMOTIVE',(#2)) ;
#1=APPLICATION_CONTEXT('configuration controlled 3D design of mechanical parts and assemblies') ;
#14=PRODUCT_DEFINITION('',' ',#6,#3) ;
#16=SECURITY_CLASSIFICATION(' ',' ',#15) ;
#15=SECURITY_CLASSIFICATION_LEVEL('unclassified') ;
#47=CARTESIAN_POINT(' ',(0.,0.,0.)) ;
#51=CARTESIAN_POINT('Line Origine',(0.,0.,0.)) ;
#55=CARTESIAN_POINT('Limit',(0.,0.,0.)) ;
#56=CARTESIAN_POINT('Limit',(20.,0.,0.)) ;
#63=CARTESIAN_POINT('Line Origine',(0.,0.,0.)) ;
#67=CARTESIAN_POINT('Limit',(0.,0.,0.)) ;
#68=CARTESIAN_POINT('Limit',(0.,20.,0.)) ;
#72=CARTESIAN_POINT('Line Origine',(0.,0.,0.)) ;
#76=CARTESIAN_POINT('Limit',(0.,0.,0.)) ;
#77=CARTESIAN_POINT('Limit',(0.,0.,20.)) ;
#81=CARTESIAN_POINT('Punto.1',(0.,0.,0.)) ;
#83=CARTESIAN_POINT('Axis2P3D Location',(0.,0.,-23.5)) ;
#88=CARTESIAN_POINT('Axis2P3D Location',(0.,0.,0.)) ;
#92=CARTESIAN_POINT('Vertex',(-10.9697820236,5.99281923255,3.5527136788E-015)) ;
#94=CARTESIAN_POINT('Vertex',(10.9697820236,-5.99281923255,3.5527136788E-015)) ;
#97=CARTESIAN_POINT('Line Origine',(-10.9697820236,5.99281923255,-23.5)) ;
#101=CARTESIAN_POINT('Vertex',(-10.9697820236,5.99281923255,-47.)) ;
#104=CARTESIAN_POINT('Axis2P3D Location',(0.,0.,-47.)) ;
#108=CARTESIAN_POINT('Vertex',(10.9697820236,-5.99281923255,-47.)) ;
#111=CARTESIAN_POINT('Line Origine',(10.9697820236,-5.99281923255,-23.5)) ;
#123=CARTESIAN_POINT('Axis2P3D Location',(0.,0.,0.)) ;
#128=CARTESIAN_POINT('Axis2P3D Location',(0.,0.,-47.)) ;
#140=CARTESIAN_POINT('Axis2P3D Location',(-12.5,0.,0.)) ;
#145=CARTESIAN_POINT('Axis2P3D Location',(1.7763568394E-015,-9.99200722163E-016,0.)) ;
#149=CARTESIAN_POINT('Vertex',(12.7249472705,-6.95167008441,0.)) ;
#151=CARTESIAN_POINT('Vertex',(-12.7249471474,6.95167030976,0.)) ;
#154=CARTESIAN_POINT('Axis2P3D Location',(0.,-6.66133814775E-016,0.)) ;
#168=CARTESIAN_POINT('Axis2P3D Location',(2.22044604925E-015,3.5527136788E-015,-1.5)) ;
#173=CARTESIAN_POINT('Axis2P3D Location',(-12.7249471474,6.95167030976,-1.5)) ;
#177=CARTESIAN_POINT('Vertex',(-14.0413209902,7.67080861767,-1.5)) ;
#180=CARTESIAN_POINT('Axis2P3D Location',(12.7249472705,-6.95167008441,-1.5)) ;
#184=CARTESIAN_POINT('Vertex',(14.0413209902,-7.67080861767,-1.5)) ;
#187=CARTESIAN_POINT('Axis2P3D Location',(2.22044604925E-015,3.5527136788E-015,-1.5)) ;
#199=CARTESIAN_POINT('Axis2P3D Location',(2.6645352591E-015,1.7763568394E-015,-1.5)) ;
#204=CARTESIAN_POINT('Axis2P3D Location',(2.6645352591E-015,1.7763568394E-015,-1.5)) ;
#216=CARTESIAN_POINT('Axis2P3D Location',(-16.,0.,-47.)) ;
#221=CARTESIAN_POINT('Axis2P3D Location',(0.,-2.10942374679E-015,-47.)) ;
#225=CARTESIAN_POINT('Vertex',(-12.7249471474,6.95167030976,-47.)) ;
#227=CARTESIAN_POINT('Vertex',(12.7249470348,-6.95167051595,-47.)) ;
#230=CARTESIAN_POINT('Axis2P3D Location',(0.,5.55111512313E-016,-47.)) ;
#244=CARTESIAN_POINT('Axis2P3D Location',(0.,0.,-23.5)) ;
#249=CARTESIAN_POINT('Line Origine',(-14.0413209902,7.67080861767,-23.5)) ;
#253=CARTESIAN_POINT('Vertex',(-14.0413209902,7.67080861767,-45.5)) ;
#256=CARTESIAN_POINT('Line Origine',(14.0413209902,-7.67080861767,-23.5)) ;
#260=CARTESIAN_POINT('Vertex',(14.0413209902,-7.67080861767,-45.5)) ;
#263=CARTESIAN_POINT('Axis2P3D Location',(0.,0.,-45.5)) ;
#275=CARTESIAN_POINT('Axis2P3D Location',(0.,0.,-45.5)) ;
#287=CARTESIAN_POINT('Axis2P3D Location',(3.5527136788E-015,5.3290705182E-015,-45.5)) ;
#292=CARTESIAN_POINT('Axis2P3D Location',(-12.7249471474,6.95167030976,-45.5)) ;
#297=CARTESIAN_POINT('Axis2P3D Location',(12.7249471474,-6.95167030976,-45.5)) ;
#309=CARTESIAN_POINT('Axis2P3D Location',(2.6645352591E-015,-3.5527136788E-015,-45.5)) ;
#52=DIRECTION('Vector Direction',(1.,0.,0.)) ;
#64=DIRECTION('Vector Direction',(0.,1.,0.)) ;
#73=DIRECTION('Vector Direction',(0.,0.,1.)) ;
#84=DIRECTION('Axis2P3D Direction',(0.,0.,-1.)) ;
#85=DIRECTION('Axis2P3D XDirection',(-0.87758256189,0.479425538604,-0.)) ;
#89=DIRECTION('Axis2P3D Direction',(0.,0.,-1.)) ;
#98=DIRECTION('Vector Direction',(0.,0.,-1.)) ;
#105=DIRECTION('Axis2P3D Direction',(0.,0.,-1.)) ;
#112=DIRECTION('Vector Direction',(0.,0.,-1.)) ;
#124=DIRECTION('Axis2P3D Direction',(0.,0.,-1.)) ;
#129=DIRECTION('Axis2P3D Direction',(0.,0.,-1.)) ;
#141=DIRECTION('Axis2P3D Direction',(0.,0.,-1.)) ;
#142=DIRECTION('Axis2P3D XDirection',(1.,0.,0.)) ;
#146=DIRECTION('Axis2P3D Direction',(0.,0.,-1.)) ;
#155=DIRECTION('Axis2P3D Direction',(0.,0.,-1.)) ;
#169=DIRECTION('Axis2P3D Direction',(-0.,0.,-1.)) ;
#170=DIRECTION('Axis2P3D XDirection',(-0.87758256189,0.479425538604,0.)) ;
#174=DIRECTION('Axis2P3D Direction',(-0.479425538604,-0.87758256189,0.)) ;
#181=DIRECTION('Axis2P3D Direction',(0.479425523062,0.877582570381,0.)) ;
#188=DIRECTION('Axis2P3D Direction',(-0.,0.,-1.)) ;
#200=DIRECTION('Axis2P3D Direction',(0.,0.,-1.)) ;
#201=DIRECTION('Axis2P3D XDirection',(0.929236138429,-0.369486398988,0.)) ;
#205=DIRECTION('Axis2P3D Direction',(0.,0.,-1.)) ;
#217=DIRECTION('Axis2P3D Direction',(0.,0.,-1.)) ;
#218=DIRECTION('Axis2P3D XDirection',(1.,0.,0.)) ;
#222=DIRECTION('Axis2P3D Direction',(0.,0.,-1.)) ;
#231=DIRECTION('Axis2P3D Direction',(0.,0.,-1.)) ;
#245=DIRECTION('Axis2P3D Direction',(0.,0.,-1.)) ;
#246=DIRECTION('Axis2P3D XDirection',(-0.87758256189,0.479425538604,-0.)) ;
#250=DIRECTION('Vector Direction',(0.,0.,-1.)) ;
#257=DIRECTION('Vector Direction',(0.,0.,-1.)) ;
#264=DIRECTION('Axis2P3D Direction',(0.,0.,-1.)) ;
#276=DIRECTION('Axis2P3D Direction',(0.,0.,-1.)) ;
#288=DIRECTION('Axis2P3D Direction',(-0.,0.,-1.)) ;
#289=DIRECTION('Axis2P3D XDirection',(-0.87758256189,0.479425538604,0.)) ;
#293=DIRECTION('Axis2P3D Direction',(-0.479425538604,-0.87758256189,0.)) ;
#298=DIRECTION('Axis2P3D Direction',(0.479425538604,0.87758256189,0.)) ;
#310=DIRECTION('Axis2P3D Direction',(0.,0.,-1.)) ;
#311=DIRECTION('Axis2P3D XDirection',(0.990893655188,-0.13464681247,0.)) ;
#48=AXIS2_PLACEMENT_3D(' ',#47,$,$) ;
#86=AXIS2_PLACEMENT_3D('Cylinder Axis2P3D',#83,#84,#85) ;
#90=AXIS2_PLACEMENT_3D('Circle Axis2P3D',#88,#89,$) ;
#106=AXIS2_PLACEMENT_3D('Circle Axis2P3D',#104,#105,$) ;
#125=AXIS2_PLACEMENT_3D('Circle Axis2P3D',#123,#124,$) ;
#130=AXIS2_PLACEMENT_3D('Circle Axis2P3D',#128,#129,$) ;
#143=AXIS2_PLACEMENT_3D('Plane Axis2P3D',#140,#141,#142) ;
#147=AXIS2_PLACEMENT_3D('Circle Axis2P3D',#145,#146,$) ;
#156=AXIS2_PLACEMENT_3D('Circle Axis2P3D',#154,#155,$) ;
#171=AXIS2_PLACEMENT_3D('Torus Axis2P3D',#168,#169,#170) ;
#175=AXIS2_PLACEMENT_3D('Circle Axis2P3D',#173,#174,$) ;
#182=AXIS2_PLACEMENT_3D('Circle Axis2P3D',#180,#181,$) ;
#189=AXIS2_PLACEMENT_3D('Circle Axis2P3D',#187,#188,$) ;
#202=AXIS2_PLACEMENT_3D('Torus Axis2P3D',#199,#200,#201) ;
#206=AXIS2_PLACEMENT_3D('Circle Axis2P3D',#204,#205,$) ;
#219=AXIS2_PLACEMENT_3D('Plane Axis2P3D',#216,#217,#218) ;
#223=AXIS2_PLACEMENT_3D('Circle Axis2P3D',#221,#222,$) ;
#232=AXIS2_PLACEMENT_3D('Circle Axis2P3D',#230,#231,$) ;
#247=AXIS2_PLACEMENT_3D('Cylinder Axis2P3D',#244,#245,#246) ;
#265=AXIS2_PLACEMENT_3D('Circle Axis2P3D',#263,#264,$) ;
#277=AXIS2_PLACEMENT_3D('Circle Axis2P3D',#275,#276,$) ;
#290=AXIS2_PLACEMENT_3D('Torus Axis2P3D',#287,#288,#289) ;
#294=AXIS2_PLACEMENT_3D('Circle Axis2P3D',#292,#293,$) ;
#299=AXIS2_PLACEMENT_3D('Circle Axis2P3D',#297,#298,$) ;
#312=AXIS2_PLACEMENT_3D('Torus Axis2P3D',#309,#310,#311) ;
#40=PRODUCT_DEFINITION_SHAPE(' ',' ',#14) ;
#59=COMPOSITE_CURVE('Linea.1',(#58),.U.) ;
#71=COMPOSITE_CURVE('Linea.2',(#70),.U.) ;
#80=COMPOSITE_CURVE('Linea.3',(#79),.U.) ;
#58=COMPOSITE_CURVE_SEGMENT(.DISCONTINUOUS.,.T.,#57) ;
#70=COMPOSITE_CURVE_SEGMENT(.DISCONTINUOUS.,.T.,#69) ;
#79=COMPOSITE_CURVE_SEGMENT(.DISCONTINUOUS.,.T.,#78) ;
#31=APPROVAL_PERSON_ORGANIZATION(#25,#21,#19) ;
#25=PERSON_AND_ORGANIZATION(#22,#23) ;
#22=PERSON(' ',' ',' ',$,$,$) ;
#23=ORGANIZATION(' ',' ',' ') ;
#21=APPROVAL(#20,' ') ;
#20=APPROVAL_STATUS('not_yet_approved') ;
#19=APPROVAL_ROLE('APPROVER') ;
#13=DATE_AND_TIME(#11,#12) ;
#12=LOCAL_TIME(20,29,10.,#10) ;
#10=COORDINATED_UNIVERSAL_TIME_OFFSET(0,0,.AHEAD.) ;
#117=ORIENTED_EDGE('',*,*,#96,.F.) ;
#118=ORIENTED_EDGE('',*,*,#103,.T.) ;
#119=ORIENTED_EDGE('',*,*,#110,.T.) ;
#120=ORIENTED_EDGE('',*,*,#115,.F.) ;
#134=ORIENTED_EDGE('',*,*,#127,.F.) ;
#135=ORIENTED_EDGE('',*,*,#115,.T.) ;
#136=ORIENTED_EDGE('',*,*,#132,.T.) ;
#137=ORIENTED_EDGE('',*,*,#103,.F.) ;
#160=ORIENTED_EDGE('',*,*,#153,.F.) ;
#161=ORIENTED_EDGE('',*,*,#158,.F.) ;
#164=ORIENTED_EDGE('',*,*,#127,.T.) ;
#165=ORIENTED_EDGE('',*,*,#96,.T.) ;
#193=ORIENTED_EDGE('',*,*,#179,.T.) ;
#194=ORIENTED_EDGE('',*,*,#158,.T.) ;
#195=ORIENTED_EDGE('',*,*,#186,.F.) ;
#196=ORIENTED_EDGE('',*,*,#191,.F.) ;
#210=ORIENTED_EDGE('',*,*,#186,.T.) ;
#211=ORIENTED_EDGE('',*,*,#153,.T.) ;
#212=ORIENTED_EDGE('',*,*,#179,.F.) ;
#213=ORIENTED_EDGE('',*,*,#208,.F.) ;
#236=ORIENTED_EDGE('',*,*,#229,.T.) ;
#237=ORIENTED_EDGE('',*,*,#234,.T.) ;
#240=ORIENTED_EDGE('',*,*,#110,.F.) ;
#241=ORIENTED_EDGE('',*,*,#132,.F.) ;
#269=ORIENTED_EDGE('',*,*,#255,.T.) ;
#270=ORIENTED_EDGE('',*,*,#191,.T.) ;
#271=ORIENTED_EDGE('',*,*,#262,.F.) ;
#272=ORIENTED_EDGE('',*,*,#267,.F.) ;
#281=ORIENTED_EDGE('',*,*,#262,.T.) ;
#282=ORIENTED_EDGE('',*,*,#208,.T.) ;
#283=ORIENTED_EDGE('',*,*,#255,.F.) ;
#284=ORIENTED_EDGE('',*,*,#279,.F.) ;
#303=ORIENTED_EDGE('',*,*,#296,.T.) ;
#304=ORIENTED_EDGE('',*,*,#267,.T.) ;
#305=ORIENTED_EDGE('',*,*,#301,.F.) ;
#306=ORIENTED_EDGE('',*,*,#229,.F.) ;
#315=ORIENTED_EDGE('',*,*,#301,.T.) ;
#316=ORIENTED_EDGE('',*,*,#279,.T.) ;
#317=ORIENTED_EDGE('',*,*,#296,.F.) ;
#318=ORIENTED_EDGE('',*,*,#234,.F.) ;
#166=FACE_BOUND('',#163,.T.) ;
#242=FACE_BOUND('',#239,.T.) ;
#82=CLOSED_SHELL('Closed Shell',(#122,#139,#167,#198,#215,#243,#274,#286,#308,#320)) ;
#53=VECTOR('Line Direction',#52,1.) ;
#65=VECTOR('Line Direction',#64,1.) ;
#74=VECTOR('Line Direction',#73,1.) ;
#99=VECTOR('Line Direction',#98,1.) ;
#113=VECTOR('Line Direction',#112,1.) ;
#251=VECTOR('Line Direction',#250,1.) ;
#258=VECTOR('Line Direction',#257,1.) ;
#322=ADVANCED_BREP_SHAPE_REPRESENTATION('NONE',(#321),#46) ;
#49=SHAPE_REPRESENTATION(' ',(#48),#46) ;
#122=ADVANCED_FACE('PartBody',(#121),#87,.F.) ;
#139=ADVANCED_FACE('PartBody',(#138),#87,.F.) ;
#167=ADVANCED_FACE('PartBody',(#162,#166),#144,.F.) ;
#198=ADVANCED_FACE('PartBody',(#197),#172,.T.) ;
#215=ADVANCED_FACE('PartBody',(#214),#203,.T.) ;
#243=ADVANCED_FACE('PartBody',(#238,#242),#220,.T.) ;
#274=ADVANCED_FACE('PartBody',(#273),#248,.T.) ;
#286=ADVANCED_FACE('PartBody',(#285),#248,.T.) ;
#308=ADVANCED_FACE('PartBody',(#307),#291,.T.) ;
#320=ADVANCED_FACE('PartBody',(#319),#313,.T.) ;
#4=APPLICATION_PROTOCOL_DEFINITION('international standard','config_control_design',1994,#1) ;
#32=APPROVAL_DATE_TIME(#13,#21) ;
#321=MANIFOLD_SOLID_BREP('PartBody',#82) ;
#11=CALENDAR_DATE(2017,26,3) ;
#30=CC_DESIGN_APPROVAL(#21,(#16,#6,#14)) ;
#18=CC_DESIGN_DATE_AND_TIME_ASSIGNMENT(#13,#17,(#16)) ;
#29=CC_DESIGN_DATE_AND_TIME_ASSIGNMENT(#13,#28,(#14)) ;
#17=DATE_TIME_ROLE('classification_date') ;
#28=DATE_TIME_ROLE('creation_date') ;
#27=CC_DESIGN_PERSON_AND_ORGANIZATION_ASSIGNMENT(#25,#26,(#16)) ;
#33=CC_DESIGN_PERSON_AND_ORGANIZATION_ASSIGNMENT(#25,#34,(#6)) ;
#35=CC_DESIGN_PERSON_AND_ORGANIZATION_ASSIGNMENT(#25,#36,(#6,#14)) ;
#37=CC_DESIGN_PERSON_AND_ORGANIZATION_ASSIGNMENT(#25,#38,(#5)) ;
#26=PERSON_AND_ORGANIZATION_ROLE('classification_officer') ;
#34=PERSON_AND_ORGANIZATION_ROLE('design_supplier') ;
#36=PERSON_AND_ORGANIZATION_ROLE('creator') ;
#38=PERSON_AND_ORGANIZATION_ROLE('design_owner') ;
#39=CC_DESIGN_SECURITY_CLASSIFICATION(#16,(#6)) ;
#91=CIRCLE('generated circle',#90,12.5) ;
#107=CIRCLE('generated circle',#106,12.5) ;
#126=CIRCLE('generated circle',#125,12.5) ;
#131=CIRCLE('generated circle',#130,12.5) ;
#148=CIRCLE('generated circle',#147,14.5) ;
#157=CIRCLE('generated circle',#156,14.5) ;
#176=CIRCLE('generated circle',#175,1.5) ;
#183=CIRCLE('generated circle',#182,1.5) ;
#190=CIRCLE('generated circle',#189,16.) ;
#207=CIRCLE('generated circle',#206,16.) ;
#224=CIRCLE('generated circle',#223,14.5) ;
#233=CIRCLE('generated circle',#232,14.5) ;
#266=CIRCLE('generated circle',#265,16.) ;
#278=CIRCLE('generated circle',#277,16.) ;
#295=CIRCLE('generated circle',#294,1.5) ;
#300=CIRCLE('generated circle',#299,1.5) ;
#62=SHAPE_REPRESENTATION_RELATIONSHIP(' ',' ',#49,#60) ;
#323=SHAPE_REPRESENTATION_RELATIONSHIP(' ',' ',#49,#322) ;
#87=CYLINDRICAL_SURFACE('generated cylinder',#86,12.5) ;
#248=CYLINDRICAL_SURFACE('generated cylinder',#247,16.) ;
#172=TOROIDAL_SURFACE('homeo Torus',#171,14.5,1.5) ;
#203=TOROIDAL_SURFACE('homeo Torus',#202,14.5,1.5) ;
#291=TOROIDAL_SURFACE('homeo Torus',#290,14.5,1.5) ;
#313=TOROIDAL_SURFACE('homeo Torus',#312,14.5,1.5) ;
#3=DESIGN_CONTEXT(' ',#1,'design') ;
#96=EDGE_CURVE('',#93,#95,#91,.T.) ;
#103=EDGE_CURVE('',#93,#102,#100,.T.) ;
#110=EDGE_CURVE('',#102,#109,#107,.T.) ;
#115=EDGE_CURVE('',#95,#109,#114,.T.) ;
#127=EDGE_CURVE('',#95,#93,#126,.T.) ;
#132=EDGE_CURVE('',#109,#102,#131,.T.) ;
#153=EDGE_CURVE('',#150,#152,#148,.T.) ;
#158=EDGE_CURVE('',#152,#150,#157,.T.) ;
#179=EDGE_CURVE('',#178,#152,#176,.F.) ;
#186=EDGE_CURVE('',#185,#150,#183,.F.) ;
#191=EDGE_CURVE('',#178,#185,#190,.T.) ;
#208=EDGE_CURVE('',#185,#178,#207,.T.) ;
#229=EDGE_CURVE('',#226,#228,#224,.T.) ;
#234=EDGE_CURVE('',#228,#226,#233,.T.) ;
#255=EDGE_CURVE('',#254,#178,#252,.F.) ;
#262=EDGE_CURVE('',#261,#185,#259,.F.) ;
#267=EDGE_CURVE('',#254,#261,#266,.T.) ;
#279=EDGE_CURVE('',#261,#254,#278,.T.) ;
#296=EDGE_CURVE('',#226,#254,#295,.F.) ;
#301=EDGE_CURVE('',#228,#261,#300,.F.) ;
#116=EDGE_LOOP('',(#117,#118,#119,#120)) ;
#133=EDGE_LOOP('',(#134,#135,#136,#137)) ;
#159=EDGE_LOOP('',(#160,#161)) ;
#163=EDGE_LOOP('',(#164,#165)) ;
#192=EDGE_LOOP('',(#193,#194,#195,#196)) ;
#209=EDGE_LOOP('',(#210,#211,#212,#213)) ;
#235=EDGE_LOOP('',(#236,#237)) ;
#239=EDGE_LOOP('',(#240,#241)) ;
#268=EDGE_LOOP('',(#269,#270,#271,#272)) ;
#280=EDGE_LOOP('',(#281,#282,#283,#284)) ;
#302=EDGE_LOOP('',(#303,#304,#305,#306)) ;
#314=EDGE_LOOP('',(#315,#316,#317,#318)) ;
#121=FACE_OUTER_BOUND('',#116,.T.) ;
#138=FACE_OUTER_BOUND('',#133,.T.) ;
#162=FACE_OUTER_BOUND('',#159,.T.) ;
#197=FACE_OUTER_BOUND('',#192,.T.) ;
#214=FACE_OUTER_BOUND('',#209,.T.) ;
#238=FACE_OUTER_BOUND('',#235,.T.) ;
#273=FACE_OUTER_BOUND('',#268,.T.) ;
#285=FACE_OUTER_BOUND('',#280,.T.) ;
#307=FACE_OUTER_BOUND('',#302,.T.) ;
#319=FACE_OUTER_BOUND('',#314,.T.) ;
#61=GEOMETRIC_SET('NONE',(#59,#71,#80,#81)) ;
#60=GEOMETRICALLY_BOUNDED_SURFACE_SHAPE_REPRESENTATION('NONE',(#61),#46) ;
#45=UNCERTAINTY_MEASURE_WITH_UNIT(LENGTH_MEASURE(0.005),#41,'distance_accuracy_value','CONFUSED CURVE UNCERTAINTY') ;
#54=LINE('Line',#51,#53) ;
#66=LINE('Line',#63,#65) ;
#75=LINE('Line',#72,#74) ;
#100=LINE('Line',#97,#99) ;
#114=LINE('Line',#111,#113) ;
#252=LINE('Line',#249,#251) ;
#259=LINE('Line',#256,#258) ;
#2=MECHANICAL_CONTEXT(' ',#1,'mechanical') ;
#24=PERSONAL_ADDRESS(' ',' ',' ',' ',' ',' ',' ',' ',' ',' ',' ',' ',(#22),' ') ;
#144=PLANE('Plane',#143) ;
#220=PLANE('Plane',#219) ;
#43=PLANE_ANGLE_MEASURE_WITH_UNIT(PLANE_ANGLE_MEASURE(0.0174532925199),#42) ;
#7=PRODUCT_CATEGORY('part',$) ;
#9=PRODUCT_CATEGORY_RELATIONSHIP(' ',' ',#7,#8) ;
#6=PRODUCT_DEFINITION_FORMATION_WITH_SPECIFIED_SOURCE('',' ',#5,.NOT_KNOWN.) ;
#8=PRODUCT_RELATED_PRODUCT_CATEGORY('detail',$,(#5)) ;
#50=SHAPE_DEFINITION_REPRESENTATION(#40,#49) ;
#57=TRIMMED_CURVE('',#54,(#55),(#56),.T.,.CARTESIAN.) ;
#69=TRIMMED_CURVE('',#66,(#67),(#68),.T.,.CARTESIAN.) ;
#78=TRIMMED_CURVE('',#75,(#76),(#77),.T.,.CARTESIAN.) ;
#93=VERTEX_POINT('',#92) ;
#95=VERTEX_POINT('',#94) ;
#102=VERTEX_POINT('',#101) ;
#109=VERTEX_POINT('',#108) ;
#150=VERTEX_POINT('',#149) ;
#152=VERTEX_POINT('',#151) ;
#178=VERTEX_POINT('',#177) ;
#185=VERTEX_POINT('',#184) ;
#226=VERTEX_POINT('',#225) ;
#228=VERTEX_POINT('',#227) ;
#254=VERTEX_POINT('',#253) ;
#261=VERTEX_POINT('',#260) ;
#41=(LENGTH_UNIT()NAMED_UNIT(*)SI_UNIT(.MILLI.,.METRE.)) ;
#42=(NAMED_UNIT(*)PLANE_ANGLE_UNIT()SI_UNIT($,.RADIAN.)) ;
#44=(NAMED_UNIT(*)SI_UNIT($,.STERADIAN.)SOLID_ANGLE_UNIT()) ;
#46=(GEOMETRIC_REPRESENTATION_CONTEXT(3)GLOBAL_UNCERTAINTY_ASSIGNED_CONTEXT((#45))GLOBAL_UNIT_ASSIGNED_CONTEXT((#41,#42,#44))REPRESENTATION_CONTEXT(' ',' ')) ;
ENDSEC;
END-ISO-10303-21;
